ISO-10303-21;
HEADER;
FILE_DESCRIPTION (( 'STEP AP203' ),
    '1' );
FILE_NAME ('Q-OZHWP-R2-25.4-980-M.STEP',
    '2020-12-22T09:20:09',
    ( '' ),
    ( '' ),
    'SwSTEP 2.0',
    'SolidWorks 2020',
    '' );
FILE_SCHEMA (( 'CONFIG_CONTROL_DESIGN' ));
ENDSEC;

DATA;
#1 = DIRECTION ( 'NONE',  ( 0.000000000000000000, 0.000000000000000000, 1.000000000000000000 ) ) ;
#2 = PERSON_AND_ORGANIZATION_ROLE ( 'creator' ) ;
#3 = COORDINATED_UNIVERSAL_TIME_OFFSET ( 8, 0, .AHEAD. ) ;
#4 = CC_DESIGN_APPROVAL ( #174, ( #82 ) ) ;
#5 = PERSON_AND_ORGANIZATION ( #73, #53 ) ;
#6 = DIRECTION ( 'NONE',  ( 0.000000000000000000, 0.000000000000000000, 1.000000000000000000 ) ) ;
#7 = PLANE ( 'NONE',  #97 ) ;
#8 = EDGE_LOOP ( 'NONE', ( #110, #96, #50, #175 ) ) ;
#9 = VERTEX_POINT ( 'NONE', #75 ) ;
#10 = CC_DESIGN_SECURITY_CLASSIFICATION ( #82, ( #59 ) ) ;
#11 = ADVANCED_FACE ( 'NONE', ( #147 ), #80, .T. ) ;
#12 = DATE_AND_TIME ( #152, #94 ) ;
#13 = DIRECTION ( 'NONE',  ( -1.000000000000000000, 0.000000000000000000, -0.000000000000000000 ) ) ;
#14 = CARTESIAN_POINT ( 'NONE',  ( 0.000000000000000000, 0.000000000000000000, 0.000000000000000000 ) ) ;
#15 = APPROVAL_STATUS ( 'not_yet_approved' ) ;
#16 = PERSON_AND_ORGANIZATION ( #73, #53 ) ;
#17 = COORDINATED_UNIVERSAL_TIME_OFFSET ( 8, 0, .AHEAD. ) ;
#18 = ADVANCED_FACE ( 'NONE', ( #35 ), #109, .F. ) ;
#19 = ORIENTED_EDGE ( 'NONE', *, *, #91, .F. ) ;
#20 = CC_DESIGN_PERSON_AND_ORGANIZATION_ASSIGNMENT ( #5, #61, ( #59 ) ) ;
#21 = AXIS2_PLACEMENT_3D ( 'NONE', #52, #146, #77 ) ;
#22 = ORIENTED_EDGE ( 'NONE', *, *, #122, .F. ) ;
#23 = EDGE_CURVE ( 'NONE', #135, #169, #148, .T. ) ;
#24 = DATE_AND_TIME ( #114, #99 ) ;
#25 = CARTESIAN_POINT ( 'NONE',  ( -3.000000000000000000, 1.555301434917138433E-15, -12.69999999999999929 ) ) ;
#26 = PRODUCT_DEFINITION ( 'UNKNOWN', '', #59, #89 ) ;
#27 = APPROVAL_DATE_TIME ( #12, #39 ) ;
#28 = CLOSED_SHELL ( 'NONE', ( #163, #11, #93, #18 ) ) ;
#29 = PERSON_AND_ORGANIZATION ( #73, #53 ) ;
#30 = DATE_AND_TIME ( #166, #104 ) ;
#31 = VECTOR ( 'NONE', #83, 1000.000000000000000 ) ;
#32 = APPROVAL_ROLE ( '' ) ;
#33 = COORDINATED_UNIVERSAL_TIME_OFFSET ( 8, 0, .AHEAD. ) ;
#34 = PRODUCT ( 'Q-OZHWP-R2-25.4-980-M', 'Q-OZHWP-R2-25.4-980-M', '', ( #102 ) ) ;
#35 = FACE_OUTER_BOUND ( 'NONE', #65, .T. ) ;
#36 = FACE_OUTER_BOUND ( 'NONE', #160, .T. ) ;
#37 = CARTESIAN_POINT ( 'NONE',  ( -3.000000000000001776, 0.000000000000000000, 0.000000000000000000 ) ) ;
#38 = CC_DESIGN_APPROVAL ( #74, ( #59 ) ) ;
#39 = APPROVAL ( #128, 'UNSPECIFIED' ) ;
#40 = EDGE_CURVE ( 'NONE', #62, #9, #71, .T. ) ;
#41 = CIRCLE ( 'NONE', #63, 12.69999999999999929 ) ;
#42 = LOCAL_TIME ( 17, 20, 9.000000000000000000, #92 ) ;
#43 = CARTESIAN_POINT ( 'NONE',  ( -3.000000000000000000, 0.000000000000000000, 12.69999999999999929 ) ) ;
#44 = DIRECTION ( 'NONE',  ( -1.000000000000000000, -0.000000000000000000, -0.000000000000000000 ) ) ;
#45 = DIRECTION ( 'NONE',  ( 0.000000000000000000, 0.000000000000000000, 1.000000000000000000 ) ) ;
#46 = AXIS2_PLACEMENT_3D ( 'NONE', #14, #69, #127 ) ;
#47 = CARTESIAN_POINT ( 'NONE',  ( 3.000000000000001776, 0.000000000000000000, 12.69999999999999929 ) ) ;
#48 = APPROVAL_ROLE ( '' ) ;
#49 = APPROVAL_DATE_TIME ( #167, #174 ) ;
#50 = ORIENTED_EDGE ( 'NONE', *, *, #40, .F. ) ;
#51 = CARTESIAN_POINT ( 'NONE',  ( -3.000000000000001776, 0.000000000000000000, 12.69999999999999929 ) ) ;
#52 = CARTESIAN_POINT ( 'NONE',  ( -3.000000000000000000, 0.000000000000000000, 0.000000000000000000 ) ) ;
#53 = ORGANIZATION ( 'UNSPECIFIED', 'UNSPECIFIED', '' ) ;
#54 = ADVANCED_BREP_SHAPE_REPRESENTATION ( 'Q-OZHWP-R2-25.4-980-M', ( #173, #46 ), #88 ) ;
#55 = PERSON_AND_ORGANIZATION ( #73, #53 ) ;
#56 = DATE_TIME_ROLE ( 'creation_date' ) ;
#57 = CYLINDRICAL_SURFACE ( 'NONE', #125, 12.69999999999999929 ) ;
#58 = CC_DESIGN_PERSON_AND_ORGANIZATION_ASSIGNMENT ( #55, #2, ( #26 ) ) ;
#59 = PRODUCT_DEFINITION_FORMATION_WITH_SPECIFIED_SOURCE ( 'ANY', '', #34, .NOT_KNOWN. ) ;
#60 = DATE_AND_TIME ( #115, #118 ) ;
#61 = PERSON_AND_ORGANIZATION_ROLE ( 'creator' ) ;
#62 = VERTEX_POINT ( 'NONE', #51 ) ;
#63 = AXIS2_PLACEMENT_3D ( 'NONE', #124, #84, #45 ) ;
#64 = CARTESIAN_POINT ( 'NONE',  ( -3.000000000000001776, 0.000000000000000000, 0.000000000000000000 ) ) ;
#65 = EDGE_LOOP ( 'NONE', ( #107, #137 ) ) ;
#66 = CC_DESIGN_PERSON_AND_ORGANIZATION_ASSIGNMENT ( #16, #70, ( #82 ) ) ;
#67 = LINE ( 'NONE', #25, #133 ) ;
#68 = APPROVAL_PERSON_ORGANIZATION ( #112, #74, #48 ) ;
#69 = DIRECTION ( 'NONE',  ( 0.000000000000000000, 0.000000000000000000, 1.000000000000000000 ) ) ;
#70 = PERSON_AND_ORGANIZATION_ROLE ( 'classification_officer' ) ;
#71 = CIRCLE ( 'NONE', #76, 12.69999999999999929 ) ;
#72 = PERSON_AND_ORGANIZATION_ROLE ( 'design_supplier' ) ;
#73 = PERSON ( 'UNSPECIFIED', 'UNSPECIFIED', 'UNSPECIFIED', ('UNSPECIFIED'), ('UNSPECIFIED'), ('UNSPECIFIED') ) ;
#74 = APPROVAL ( #15, 'UNSPECIFIED' ) ;
#75 = CARTESIAN_POINT ( 'NONE',  ( -3.000000000000001776, 1.555301434917138433E-15, -12.69999999999999929 ) ) ;
#76 = AXIS2_PLACEMENT_3D ( 'NONE', #64, #119, #172 ) ;
#77 = DIRECTION ( 'NONE',  ( 0.000000000000000000, 0.000000000000000000, 1.000000000000000000 ) ) ;
#78 = CC_DESIGN_DATE_AND_TIME_ASSIGNMENT ( #24, #56, ( #26 ) ) ;
#79 = EDGE_LOOP ( 'NONE', ( #121, #81, #120, #19 ) ) ;
#80 = CYLINDRICAL_SURFACE ( 'NONE', #21, 12.69999999999999929 ) ;
#81 = ORIENTED_EDGE ( 'NONE', *, *, #122, .T. ) ;
#82 = SECURITY_CLASSIFICATION ( '', '', #131 ) ;
#83 = DIRECTION ( 'NONE',  ( -1.000000000000000000, -0.000000000000000000, -0.000000000000000000 ) ) ;
#84 = DIRECTION ( 'NONE',  ( -1.000000000000000000, -0.000000000000000000, -0.000000000000000000 ) ) ;
#85 = LINE ( 'NONE', #43, #31 ) ;
#86 = APPLICATION_PROTOCOL_DEFINITION ( 'international standard', 'config_control_design', 1994, #168 ) ;
#87 = APPROVAL_DATE_TIME ( #60, #74 ) ;
#88 =( GEOMETRIC_REPRESENTATION_CONTEXT ( 3 ) GLOBAL_UNCERTAINTY_ASSIGNED_CONTEXT ( ( #103 ) ) GLOBAL_UNIT_ASSIGNED_CONTEXT ( ( #153, #154, #139 ) ) REPRESENTATION_CONTEXT ( 'NONE', 'WORKASPACE' ) );
#89 = DESIGN_CONTEXT ( 'detailed design', #168, 'design' ) ;
#90 = SHAPE_DEFINITION_REPRESENTATION ( #144, #54 ) ;
#91 = EDGE_CURVE ( 'NONE', #9, #62, #157, .T. ) ;
#92 = COORDINATED_UNIVERSAL_TIME_OFFSET ( 8, 0, .AHEAD. ) ;
#93 = ADVANCED_FACE ( 'NONE', ( #36 ), #7, .F. ) ;
#94 = LOCAL_TIME ( 17, 20, 9.000000000000000000, #126 ) ;
#95 = DIRECTION ( 'NONE',  ( 1.000000000000000000, 0.000000000000000000, 0.000000000000000000 ) ) ;
#96 = ORIENTED_EDGE ( 'NONE', *, *, #141, .T. ) ;
#97 = AXIS2_PLACEMENT_3D ( 'NONE', #162, #13, #164 ) ;
#98 = PERSON_AND_ORGANIZATION_ROLE ( 'design_owner' ) ;
#99 = LOCAL_TIME ( 17, 20, 9.000000000000000000, #3 ) ;
#100 = PERSON_AND_ORGANIZATION ( #73, #53 ) ;
#101 = DIRECTION ( 'NONE',  ( -1.000000000000000000, -0.000000000000000000, -0.000000000000000000 ) ) ;
#102 = MECHANICAL_CONTEXT ( 'NONE', #161, 'mechanical' ) ;
#103 = UNCERTAINTY_MEASURE_WITH_UNIT (LENGTH_MEASURE( 1.000000000000000082E-05 ), #153, 'distance_accuracy_value', 'NONE');
#104 = LOCAL_TIME ( 17, 20, 9.000000000000000000, #33 ) ;
#105 = CALENDAR_DATE ( 2020, 22, 12 ) ;
#106 = PRODUCT_RELATED_PRODUCT_CATEGORY ( 'detail', '', ( #34 ) ) ;
#107 = ORIENTED_EDGE ( 'NONE', *, *, #40, .T. ) ;
#108 = DIRECTION ( 'NONE',  ( -1.000000000000000000, -0.000000000000000000, -0.000000000000000000 ) ) ;
#109 = PLANE ( 'NONE',  #129 ) ;
#110 = ORIENTED_EDGE ( 'NONE', *, *, #23, .T. ) ;
#111 = CARTESIAN_POINT ( 'NONE',  ( 3.000000000000001776, 1.555301434917138433E-15, -12.69999999999999929 ) ) ;
#112 = PERSON_AND_ORGANIZATION ( #73, #53 ) ;
#113 = APPLICATION_PROTOCOL_DEFINITION ( 'international standard', 'config_control_design', 1994, #161 ) ;
#114 = CALENDAR_DATE ( 2020, 22, 12 ) ;
#115 = CALENDAR_DATE ( 2020, 22, 12 ) ;
#116 = PERSON_AND_ORGANIZATION ( #73, #53 ) ;
#117 = ORIENTED_EDGE ( 'NONE', *, *, #23, .F. ) ;
#118 = LOCAL_TIME ( 17, 20, 9.000000000000000000, #17 ) ;
#119 = DIRECTION ( 'NONE',  ( -1.000000000000000000, -0.000000000000000000, -0.000000000000000000 ) ) ;
#120 = ORIENTED_EDGE ( 'NONE', *, *, #136, .T. ) ;
#121 = ORIENTED_EDGE ( 'NONE', *, *, #141, .F. ) ;
#122 = EDGE_CURVE ( 'NONE', #169, #135, #41, .T. ) ;
#123 = APPROVAL_ROLE ( '' ) ;
#124 = CARTESIAN_POINT ( 'NONE',  ( 3.000000000000001776, 0.000000000000000000, 0.000000000000000000 ) ) ;
#125 = AXIS2_PLACEMENT_3D ( 'NONE', #149, #44, #1 ) ;
#126 = COORDINATED_UNIVERSAL_TIME_OFFSET ( 8, 0, .AHEAD. ) ;
#127 = DIRECTION ( 'NONE',  ( 1.000000000000000000, 0.000000000000000000, 0.000000000000000000 ) ) ;
#128 = APPROVAL_STATUS ( 'not_yet_approved' ) ;
#129 = AXIS2_PLACEMENT_3D ( 'NONE', #134, #95, #159 ) ;
#130 = DATE_TIME_ROLE ( 'classification_date' ) ;
#131 = SECURITY_CLASSIFICATION_LEVEL ( 'unclassified' ) ;
#132 = DIRECTION ( 'NONE',  ( -1.000000000000000000, -0.000000000000000000, -0.000000000000000000 ) ) ;
#133 = VECTOR ( 'NONE', #101, 1000.000000000000000 ) ;
#134 = CARTESIAN_POINT ( 'NONE',  ( -3.000000000000000888, 12.69999999999999929, 0.000000000000000000 ) ) ;
#135 = VERTEX_POINT ( 'NONE', #47 ) ;
#136 = EDGE_CURVE ( 'NONE', #135, #62, #85, .T. ) ;
#137 = ORIENTED_EDGE ( 'NONE', *, *, #91, .T. ) ;
#138 = APPROVAL_PERSON_ORGANIZATION ( #143, #174, #32 ) ;
#139 =( NAMED_UNIT ( * ) SI_UNIT ( $, .STERADIAN. ) SOLID_ANGLE_UNIT ( ) );
#140 = CC_DESIGN_PERSON_AND_ORGANIZATION_ASSIGNMENT ( #116, #72, ( #59 ) ) ;
#141 = EDGE_CURVE ( 'NONE', #169, #9, #67, .T. ) ;
#142 = FACE_OUTER_BOUND ( 'NONE', #8, .T. ) ;
#143 = PERSON_AND_ORGANIZATION ( #73, #53 ) ;
#144 = PRODUCT_DEFINITION_SHAPE ( 'NONE', 'NONE',  #26 ) ;
#145 = CARTESIAN_POINT ( 'NONE',  ( 3.000000000000001776, 0.000000000000000000, 0.000000000000000000 ) ) ;
#146 = DIRECTION ( 'NONE',  ( -1.000000000000000000, -0.000000000000000000, -0.000000000000000000 ) ) ;
#147 = FACE_OUTER_BOUND ( 'NONE', #79, .T. ) ;
#148 = CIRCLE ( 'NONE', #155, 12.69999999999999929 ) ;
#149 = CARTESIAN_POINT ( 'NONE',  ( -3.000000000000000000, 0.000000000000000000, 0.000000000000000000 ) ) ;
#150 = APPROVAL_PERSON_ORGANIZATION ( #100, #39, #123 ) ;
#151 = CC_DESIGN_DATE_AND_TIME_ASSIGNMENT ( #30, #130, ( #82 ) ) ;
#152 = CALENDAR_DATE ( 2020, 22, 12 ) ;
#153 =( LENGTH_UNIT ( ) NAMED_UNIT ( * ) SI_UNIT ( .MILLI., .METRE. ) );
#154 =( NAMED_UNIT ( * ) PLANE_ANGLE_UNIT ( ) SI_UNIT ( $, .RADIAN. ) );
#155 = AXIS2_PLACEMENT_3D ( 'NONE', #145, #132, #6 ) ;
#156 = CC_DESIGN_PERSON_AND_ORGANIZATION_ASSIGNMENT ( #29, #98, ( #34 ) ) ;
#157 = CIRCLE ( 'NONE', #170, 12.69999999999999929 ) ;
#158 = DIRECTION ( 'NONE',  ( 0.000000000000000000, 0.000000000000000000, 1.000000000000000000 ) ) ;
#159 = DIRECTION ( 'NONE',  ( 0.000000000000000000, 0.000000000000000000, -1.000000000000000000 ) ) ;
#160 = EDGE_LOOP ( 'NONE', ( #117, #22 ) ) ;
#161 = APPLICATION_CONTEXT ( 'configuration controlled 3d designs of mechanical parts and assemblies' ) ;
#162 = CARTESIAN_POINT ( 'NONE',  ( 3.000000000000000888, 12.69999999999999929, 0.000000000000000000 ) ) ;
#163 = ADVANCED_FACE ( 'NONE', ( #142 ), #57, .T. ) ;
#164 = DIRECTION ( 'NONE',  ( -0.000000000000000000, 0.000000000000000000, 1.000000000000000000 ) ) ;
#165 = APPROVAL_STATUS ( 'not_yet_approved' ) ;
#166 = CALENDAR_DATE ( 2020, 22, 12 ) ;
#167 = DATE_AND_TIME ( #105, #42 ) ;
#168 = APPLICATION_CONTEXT ( 'configuration controlled 3d designs of mechanical parts and assemblies' ) ;
#169 = VERTEX_POINT ( 'NONE', #111 ) ;
#170 = AXIS2_PLACEMENT_3D ( 'NONE', #37, #108, #158 ) ;
#171 = CC_DESIGN_APPROVAL ( #39, ( #26 ) ) ;
#172 = DIRECTION ( 'NONE',  ( 0.000000000000000000, 0.000000000000000000, 1.000000000000000000 ) ) ;
#173 = MANIFOLD_SOLID_BREP ( 'Ðý×', #28 ) ;
#174 = APPROVAL ( #165, 'UNSPECIFIED' ) ;
#175 = ORIENTED_EDGE ( 'NONE', *, *, #136, .F. ) ;
ENDSEC;
END-ISO-10303-21;
